Web Analytics
Jump to content

Karpe Diem


Recommended Posts

Jeg ble spurt om jeg kunne spille noen sanger på et kommende ungdoms-arrangement, og der og da sa jeg greit. Nå har jeg sett igjennom sangene jeg skal spille, men det er en sang jeg ikke fant helt ut av.. det er regnvær av Karpe Diem!

Det er en fin sang med tanke på gitardelen. Men jeg har ikke akkurat det beste gehøret til å finne ut hvilke akkorder som blir spilt.. Og jeg fant heller ingen siden med grep. Jeg har eksperimentert rund d-dur akkorden og a-dur, men det ble liksom aldri helt rett..

Håper noen her kan hjelpe :)

Link to comment
Share on other sites

  • 1 month later...

Fikk ikke tid her om dagen. Men nå har jeg fått skrevet det ned. Lykke til ;)


Intro:

:-----------------6---8--:
:-8--6--8--6--8---6---8--:
:-5--5--5--5--5---7---8--:
:-6--6--6--6--6---8---10-:
:------------------------:
:------------------------: x3

:-------------4----:
:---------4-6------:
:-5-7-8------------:
:------------------:
:---------6 let ring--:
:-8 let ring----------:


Vers:

:----------------:
:----------------:
:-----------8--7-:
:-----5-----8--8-:
:-3-----3---6--5-:
:---3------------:


Refreng:

:-----------------6---8--:
:-8--6--8--6--8---6---8--:
:-5--5--5--5--5---7---8--:
:-6--6--6--6--6---8---10-:
:------------------------:
:------------------------: x3

:-------------4----:
:---------4-6------:
:-5-7-8------------:
:------------------:
:---------6 let ring--:
:-8 let ring----------:

Markeringene etter refrenget er en C-moll.


Vers:

:----------------:
:----------------:
:-----------8--7-:
:-----5-----8--8-:
:-3-----3---6--5-:
:---3------------:


Refreng:

:-----------------6---8--:
:-8--6--8--6--8---6---8--:
:-5--5--5--5--5---7---8--:
:-6--6--6--6--6---8---10-:
:------------------------:
:------------------------: x3

:-------------4----:
:---------4-6------:
:-5-7-8------------:
:------------------:
:---------6 let ring--:
:-8 let ring----------:

Markeringene etter refrenget er en C-moll.


Bridge:

C-moll - A#dur - G#dur - A#dur


Refreng:

:-----------------6---8--:
:-8--6--8--6--8---6---8--:
:-5--5--5--5--5---7---8--:
:-6--6--6--6--6---8---10-:
:------------------------:
:------------------------: x3

:-------------4----:
:---------4-6------:
:-5-7-8------------:
:------------------:
:---------6 let ring--:
:-8 let ring----------:

Markeringene etter refrenget er en C-moll.


Outro:

:----------------:
:----------------:
:-----------8--7-:
:-----5-----8--8-:
:-3-----3---6--5-:
:---3------------:

Edited by T-Bone
Link to comment
Share on other sites

Create an account or sign in to comment

You need to be a member in order to leave a comment

Create an account

Sign up for a new account in our community. It's easy!

Register a new account

Sign in

Already have an account? Sign in here.

Sign In Now
 Share

  • Recently Browsing   0 members

    • No registered users viewing this page.
  • Siste aktive tråder

    • Jeg liker kjøpene dine Zed! Har mange av dem i samlingen min👍
    • Takk for tipset.. Skal kikke.
    • For å låte tidsriktig. Når det gjelder viola da gamba og andre tidlige strykeinstrumenter, finnes det heller ikke noe brukbart alternativ. Dessuten er alle de klassiske instrumentene vi spiller på i dag egentlig lagd for tarmstrenger, nylon og stål ble ikke vanlig før etter krigen.   De billigste tarmstrengene til gitar koster vel rundt 500 spenn + frakt og toll. Som sagt, prøv syntetisk tarm isteden. De jeg anbefalte over låter etter min mening mye bedre enn nylonstrenger uten å koste mer. For et godt sett strenger til min bassgambe, må jeg ut med et par tusen.
    • Hvorfor velger foll å spille med dem da da? :S jeg har aldri rørt ett instrumemt strenget opp med tarm, bare vet det ble brukt i gamledager så fikk lyst å prøve. erre så steike dyrt da?? Høres jo ut som vinninga gikk i spinninga liksom
  • http://www.BILDELERstore.co.no

  • Støtt driften av GitarNorge


  • Https://Www.AutoDELER.co.NO
×
×
  • Create New...

Important Information

By using this site, you agree to our Terms of Use.