Gå til innhold
windofpain

"Lick"/Øvelse for kombinasjon av teknikker (Shred/

Anbefalte innlegg

Dette er en metal/shred-øvelse over den repeterende akkordprogresjonen F-Am. Meningen er å bruke sweeping på arpeggio'ene og alternerende plektring på string skipping'en og skala-løpene. Ganske moro å spille når man først får ballen til å rulle!

Lydklipp finnes her under navnet "Exercise/Licks" (ille senebetennelse i venstrehånden gjør vel sitt til at det blir noe unøyaktig, men man får et visst inntrykk uansett):

http://www.soundclick.com/bands/1/windofpainmusic.htm

  Q=120

4/4

 Gtr I

 |-3-| |-3-| |-3-| |-3-| |-3-| |-3-| |-3-| |-3-|

 S S S S S S S S S S S S S S S S S S S S S S S S

|-8-5---------------3-5-7-8-5---------------3-5-7-|----|

|-----6-----------------------6-------------------|----|

|-------5-----4-5-7-------------5-----4-5-7-------|----|

|---------7-----------------------7---------------|----|

|-----------8-----------------------8-------------|----|

|-------------------------------------------------|----|





 |-3-| |-3-| |-3-| |-3-| |-3--| |-3--| |-3--| |-3--|

 S S S S S S S S S S S S S S  S S S  S S S  S S S  S

|-8-5----------------------------7-8-10-8-7----7-8-10-|----|

|-----6-------------------6-8-10------------10--------|----|

|-------5-----------5-7-9-----------------------------|----|

|---------7---5-7-9-----------------------------------|----|

|-----------8-----------------------------------------|----|

|-----------------------------------------------------|----|





  |-3--| |--3--| |-3--| |-3--|  |-3--| |--3--| |-3--| |-3--|

  S S  S S  S  S S S  S S S  S  S S  S S  S  S S S  S S S  S

|-12-8-------------------7-8-10-12-8-------------------7-8-10-|----|

|------10----------------------------10-----------------------|----|

|---------9-------7-9-10----------------9-------7-9-10--------|----|

|-----------10----------------------------10------------------|----|

|--------------12----------------------------12---------------|----|

|-------------------------------------------------------------|----|





  T  T T T  T T T T T T T T T T T T T T T T T T T T T T T T T T T T

|-12-10-8-7-10-8-7-5-8-7-5---7-5-----5-------------------------3-5-7-|----|

|--------------------------8-----8-6---8-6-5-8-6-5-3-6-5-3-5-6-------|----|

|--------------------------------------------------------------------|----|

|--------------------------------------------------------------------|----|

|--------------------------------------------------------------------|----|

|--------------------------------------------------------------------|----|



Del dette innlegget


Lenke til innlegg
Del på andre sider

Kanskje jeg kan lære meg litt sweeping også, der er jeg fullstendig blank...

Del dette innlegget


Lenke til innlegg
Del på andre sider

Ziras er et monster. Sykt bra teknikk.

En annen neoklassisk über-sweeper som er verdt å sjekke ut er George Bellas:

www.georgebellas.com

Del dette innlegget


Lenke til innlegg
Del på andre sider

Ziras er helt "Off the hook" hehe Sinnsvakelig teknikk..

Anbefaler også Bellas for den saks skyld :)

Del dette innlegget


Lenke til innlegg
Del på andre sider

Opprett en konto eller logg inn for å kommentere

Du må være et medlem for å kunne skrive en kommentar

Opprett konto

Det er enkelt å melde seg inn for å starte en ny konto!

Start en konto

Logg inn

Har du allerede en konto? Logg inn her.

Logg inn nå

  • Hvem er aktive   0 medlemmer

    Ingen innloggede medlemmer aktive

×
×
  • Opprett ny...

Viktig informasjon

Dette nettstedet bruker cookies for å gi deg en best mulig brukeropplevelse Bruksvilkår.