Gå til innhold
OJ

Euroboys - One way street

Anbefalte innlegg

Noen som har tabs til den? Jeg har søkt på de fleste tabs-sidene + google, men finner den ikke :(

Del dette innlegget


Lenke til innlegg
Del på andre sider

Har søkt etter den veldig lenge jeg og nå, men det virker som den ikke er lagt ut på nettet.

Del dette innlegget


Lenke til innlegg
Del på andre sider

Introen ;) :

Intro riff:

    G

e|-----------------------------------------------------------------

B|----------------/5----3--2---------------------/5----3--2--------

G|---2h4p2h4p2----/6----4--2--------2h4p2h4p2----/6----4--2--------

D|-----------------------------------------------------------------

A|-----------------------------------------------------------------

E|-----------------------------------------------------------------



    F

e|-----------------------------------------------------------------

B|----------------/3----1--0---------------------/3----1--0--------

G|---0h2p0h2p0----/4----2--0--------0h2p0h2p0----/4----2--0--------

D|-----------------------------------------------------------------

A|-----------------------------------------------------------------

E|-----------------------------------------------------------------

Del dette innlegget


Lenke til innlegg
Del på andre sider

Opprett en konto eller logg inn for å kommentere

Du må være et medlem for å kunne skrive en kommentar

Opprett konto

Det er enkelt å melde seg inn for å starte en ny konto!

Start en konto

Logg inn

Har du allerede en konto? Logg inn her.

Logg inn nå

  • Hvem er aktive   0 medlemmer

    Ingen innloggede medlemmer aktive

×
×
  • Opprett ny...

Viktig informasjon

Dette nettstedet bruker cookies for å gi deg en best mulig brukeropplevelse Bruksvilkår.