Gå til innhold
Concker

Hjelp med blues scala

Anbefalte innlegg

Heisann,

Har nettop begynt og lære meg solo spilling, og siden jeg bestandig bare har spilt riff og rythme må jeg lære meg basics.

Anyways har jeg ordna med skikkelig lærer osv, problemet er at jeg har glemt en siste greia han ikke rakk og skrive ned sist gang.

Er vel egentlig vanlig blues scala i E men over hele halsen?

Dette er så langt jeg kommer nå uten og huske noe mer:

---------------------------------

---------------------------------

---------------------------------

---------------------------------

-------------5--6--7-------------

--0--3--5--7---------------------

Tror den skal avsluttes i 12 bånd?

Noen som kan hjelpe meg litt her ? :)

Del dette innlegget


Lenke til innlegg
Del på andre sider

------------------------------

------------------------------

------------------------------

------------------------------

------------------------------

--0--3--5--7--10--11--12------

Dette blir akkurat de samme tonene som det du skrev, bare kun på E-strengen. Er det det du mener? Mest praktisk er det vel kanskje slik:

-------------------------------

-------------------------------

-------------------------------

--------------0--1--2----------

--------0--2-------------------

--0--3-------------------------

Del dette innlegget


Lenke til innlegg
Del på andre sider

--------------------5---8

---------------5--8------

-------5-7-8-------------

-------------------------

-------------------------

-------------------------

vet ikkje om eg misforsto deg helt nå :blink:

men men :lol:

Del dette innlegget


Lenke til innlegg
Del på andre sider

------------------------------

------------------------------

------------------------------

------------------------------

------------------------------

--0--3--5--7--10--11--12------

Dette blir akkurat de samme tonene som det du skrev, bare kun på E-strengen. Er det det du mener? Mest praktisk er det vel kanskje slik:

-------------------------------

-------------------------------

-------------------------------

--------------0--1--2----------

--------0--2-------------------

--0--3-------------------------

--------------------5---8

---------------5--8------

-------5-7-8-------------

-------------------------

-------------------------

-------------------------

vet ikkje om eg misforsto deg helt nå :blink:

men men :lol:

Dette blir ikke helt det jeg mener.

Det blir liksom vanlig blues skala i E, men istedet for da vanlig nedover 12 båndet går det over hele halsen på gitaren. Om noen skjønner hva jeg mener :)

Blir altså da at man starter slik jeg skrev med åpen E streng så 3 bånd, og scalaen er like mange toner som vanlig men slutter da på 12 bånd.

Vanskelig og forklare helt hva jeg mener men kanskje noen som skjønner det :P

Del dette innlegget


Lenke til innlegg
Del på andre sider

Et skudd i blinde her, men er det noe sant noe du mener?

e:--------------------------------------------------10-11-12-:

B:---------------------------------------8-10-12-------------:

G:------------------------------7-8-9------------------------:

D:---------------------5-7-9---------------------------------:

A:------------5-6-7------------------------------------------:

E:-0-3-5-7---------------------------------------------------:

Del dette innlegget


Lenke til innlegg
Del på andre sider

Et skudd i blinde her, men er det noe sant noe du mener?

e:--------------------------------------------------10-11-12-:

B:---------------------------------------8-10-12-------------:

G:------------------------------7-8-9------------------------:

D:---------------------5-7-9---------------------------------:

A:------------5-6-7------------------------------------------:

E:-0-3-5-7---------------------------------------------------:

Noe veldig likt den der ja, Husker ikke om var akkurat sånn men veldig nært vertfall :) Så den for gå! Takker

Del dette innlegget


Lenke til innlegg
Del på andre sider

Opprett en konto eller logg inn for å kommentere

Du må være et medlem for å kunne skrive en kommentar

Opprett konto

Det er enkelt å melde seg inn for å starte en ny konto!

Start en konto

Logg inn

Har du allerede en konto? Logg inn her.

Logg inn nå

  • Hvem er aktive   0 medlemmer

    Ingen innloggede medlemmer aktive

×
×
  • Opprett ny...

Viktig informasjon

Dette nettstedet bruker cookies for å gi deg en best mulig brukeropplevelse Bruksvilkår.