Web Analytics
Gå til innhold
  • Bli medlem

Anbefalte innlegg

  • 2 weeks later...
  • 9 months later...

Artist: Thomas Dybdahl

Song: Adelaide

Album: That great octobersound

Fingerspillet på adelaide:

Fmaj C G G*

e:----0-------0-----|----0-----|----3-----|-------0-----|

B:------1-------1---|------1---|------0---|----------3---|

G:--------2-------2-|--------0-|--------0-|------------4-|

D:--3----------------|----------|-----------|-3s5---------|

A:----------3--------|-3--------|-----------|--------------|

E:-------------------|-----------|-3--------|--------------|

C/G

e:---0--------0-----|

B:-----1--------1---|

G:-------0--------0-|

D:-------------------|

A:-3----------------|

E:----------3-------|

Intro:

Fmaj

Verse 1:

Fmaj

yesterday it seemed

life was just a dream

C

a bad dream

Fmaj

you watch them all day long

C Fmaj

feel you don't belong but you're wrong

Chorus:

G Fmaj

life is good today

Fmaj C

had a pretty boy look your way

C G

don't worry Adelaide

G* Fmaj

life is good today

Fmaj C

had a pretty boy look your way

C Fmaj

don't worry Adelaide

C Fmaj

Adelaide

you see the other girls

a strand of perfect pearls

and one day the sun will shine upon your face and you will find

someone beautiful

Chorus

and one day the sun will shine upon your face and you will find

you're beautiful

Chorus

Fmaj C/G Fmaj

Adelaide

Fmaj C/G Fmaj

Adelaide

Fmaj

---------------

Artist: Thomas Dybdahl

Song: From Grace

Det blei litt rotete men håbe dåkk greie å spela an.

Chords:

EADGBe

Dm9 :xx0560 (xx0563)

G :320003

Am :x02210

Bm9: :x04430

C :332010

Fmaj7:x33210

h=hammer on

p=pull off

s=slide

Intro:

Dm9 G Am

|--------3-------------3----------------0--------------------|

|---------6--------0----1p0h1-----1-----1-------1--------|

|----------5---------0-------------2---2-----2---2---2-----|

|------------------------------------------------2------------|

|--------------------------------0----------------------------|

|------------0h3---------------------------------------------|

Dm9 G Am

|---------0---3----------3------------------0------------------|

|------6---6---6-----0----1p0h1-----1-----1-------1--------|

|--------5--5---5------0-------------2---2-----2---2--2------|

|--0-------------------------------------------------2-----------|

|------------------------------------0---------------------------|

|-----------------0h3-------------------------------------------|

Dm9 G Am

|---------0---3----------3------------------0--------------3-0-|

|------6---6---6-----0----1p0h1-----1-----1-------1--------|

|--------5--5---5------0-------------2---2-----2---2--2------|

|--0-------------------------------------------------2-----------|

|------------------------------------0---------------------------|

|-----------------0h3-------------------------------------------|

Dm9 G Am Bm9

|---------0---3----------3------------------0-------------0------|

|------6---6---6-----0----1p0h1-----1-----1------3------3----|

|--------5--5---5------0-------------2---2-----2s4---4-----4--|

|--0----------------------------------------------------------------|

|-----------------------------------0-------------------------------|

|-----------------0h3----------------------------------------------|

Verse 1:

Dm9 G Am

|---------0---3----------3------------------0---------------0----|

|------6---6---6-----0----------1------1-----1-------1--------|

|--------5--5---5------0-------------2---2-----2---2--2---2-|

|--0-------------------------------------------------2------------|

|------------------------------------0-----------------------------|

|-----------------0h3--------------------------------------------|

Its seems i have a weakness i didnt know about, till the day it rained

Dm9 G Am

|---------0---3----------3------------------0---------------0----|

|------6---6---6-----0----------1------1-----1-------1--------|

|--------5--5---5------0-------------2---2-----2---2--2---2-|

|--0-------------------------------------------------2------------|

|------------------------------------0-----------------------------|

|-----------------0h3--------------------------------------------|

its seems my weakness has been been bulging, has been forcing its way

Dm9 G Am

|---------0---3----------3------------------0---------------0----|

|------6---6---6-----0----------1------1-----1-------1--------|

|--------5--5---5------0-------------2---2-----2---2--2---2-|

|--0-------------------------------------------------2------------|

|------------------------------------0-----------------------------|

|-----------------0h3--------------------------------------------|

it seems i have a weakness i didnt know about, till the day it rained

Dm9 G Am Bm9

|---------0---3----------3------------------0-------------0-------|

|------6---6---6-----0----1p0h1-----1-----1------3------3----|

|--------5--5---5------0-------------2---2-----2s4---4-----4--|

|--0-----------------------------------------------------------------|

|-----------------------------------0--------------------------------|

|-----------------0h3----------------------------------------------|

and its seems my weakness will become my, my final state

Chorus:

C Fmaj7 Am C

And its here that i'll give, yeah i'll give you all my love

Fmaj7 Am C Fmaj7 Am

and its here that i give, yeah i give you all my love

Verse 2:

Its seems i have a secret i didnt know about

till the day it poured

its seems my secret has been bulging

has been forcing since its way

it seems i have a secret i that would be my, my final state

Its seems i have a secret i didnt know about

till the day it rained

Chorus:

And its here that i give, yeah i give you all my love

and its here that i give, yeah i give you all my love

Outro:

Am Bm9 (play these chords a few times)

then

C strum

-0--0-----------------

----1-----------------

----0-----------------

----2-----------------

----3-----------------

----------------------

liten rettelse, når eg la an inn her blei mye skeivt åsånn, og refrenge e :

Chorus:

C Fmaj7 Am C

And its here that i'll give, yeah i'll give you all my love

C Fmaj7 Am C

and its here that i give, yeah i give you all my love

ittte "yeah i give you all my love" spilles det

Fmaj Am C Fmaj Am

-------------------

#----------------------------------PLEASE NOTE---------------------------------#

#This file is the author's own work and represents their interpretation of the-#

#song. You may only use this file for private study, scholarship, or research.-#

#---------------This file was downloaded from www.taborama.com-----------------#

#------------------------------------------------------------------------------#

Thomas Dybdahl - One day you

Tabbed By: brynjar

Email: ktulus_call@hotmail.com

Tuning: Standard (E A D G B E)

This is a beautiful song. Listen to the song to figure out the fingering.

Thomas Dybdahl - One day you'll dance for me new york city

intro: Dm C Dm

Verse 1:

Dm C

Dazed and confused

Dm C Dm

Most of all better than bruzed

Dm C

Came with a dream

Dm C

Shared by more than a few it seems

Chorus:

F C Dm

Fall alseep now New York City

F C Dm

I need to rest my eyes

F C Dm

Some day I'll rise New York City

F C Dm

Some day you'll dance for me

Verse 2:

(The same chords as verse 1)

Fall back

Its been a long day

But were still on track

Embrace the fearce reality

or wither away in sentementality

Chorus: (same as previous)

There You go.. have fun

----------------------------------------

Content-Type: text/plain; name="Stay hometab.txt"

Content-Transfer-Encoding: 8bit

Content-Disposition: attachment; filename="Stay hometab.txt"

Stay home - Thomas Dybdahl

Chords:

G-D/F#-Em-Hsus4-C

----------------------------------------------------------------------

--------0------------0------------0------------0----------------------

------0---0--------0---0--------0---0--------0---0--------------------

----0-------0----0-------0----0-------0----0-------0------------------

----------------------------------------------------------------------

--3------------3------------3------------3----------------------------

----------------------------------------------------------------------

--------0------------0------------0------------0----------------------

------2---2--------2---2--------2---2--------2---2--------------------

----0-------0----0-------0----0-------0----0-------0------------------

----------------------------------------------------------------------

--2------------2------------2------------2----------------------------

----------------------------------------------------------------------

--------0------------0------------0------------0----------------------

------0---0--------0---0--------0---0--------0---0--------------------

----0-------0----0-------0----0-------0----0-------0------------------

----------------------------------------------------------------------

--0------------0------------0------------0----------------------------

----------------------------------------------------------------------

--------0------------0------------0------------0----------------------

------2---2--------2---2--------2---2--------2---2--------------------

----0-------0----0-------0----0-------0----0-------0------------------

--2------------2------------2------------2----------------------------

----------------------------------------------------------------------

----------------------------------------------------------------------

--------0------------0------------0--------1-----3--------------------

------0---0--------0---0--------0---0--------0-----0------------------

----0-------0----0-------0----0-------0--------0-----0----------------

--3------------3------------3-----------------------------------------

----------------------------------------------------------------------

---------------------------------------------------0------------------

--------3------------3------------3------------3----------------------

------0---0--------0---0--------0---0--------0---0--------------------

----0-------0----0-------0----0-------0----0--------------------------

----------------------------------------------------------------------

--3------------3------------3------------3----------------------------

---------------------------------------------------0------------------

--------3------------3------------3------------3----------------------

------0---0--------0---0--------0---0--------0---0--------------------

----0-------0----0-------0----0-------0----0--------------------------

----------------------------------------------------------------------

--2------------2------------2------------2----------------------------

--------2------------2------------2------------2----------------------

------0---0--------0---0--------0---0--------0---0--------------------

----0-------0----0-------0----0-------0----0-------0------------------

----------------------------------------------------------------------

----------------------------------------------------------------------

--0------------0------------0------------0----------------------------

--------2------------2------------2------------2----------------------

------0---0--------0---0--------0---0--------0---0--------------------

----2-------2----2-------2----2-------2----2-------2------------------

----------------------------------------------------------------------

--2------------2------------2------------2----------------------------

----------------------------------------------------------------------

--------3------------3------------3------------3----------------------

------0---0--------0---0--------0---0--------0---0--------------------

----0-------0----0-------0----0-------0----0-------0------------------

----------------------------------------------------------------------

--3------------3------------3------------3----------------------------

----------------------------------------------------------------------

Stay home with me

----------------------------------------------------------------------

--------0------------0------------0------------0----------------------

------0---0--------0---0--------0---0--------0---0--------------------

----0-------0----0-------0----0-------0----0-------0------------------

----------------------------------------------------------------------

--3------------3------------3------------3----------------------------

Never look back

----------------------------------------------------------------------

--------0------------0------------0------------0----------------------

------2---2--------2---2--------2---2--------2---2--------------------

----0-------0----0-------0----0-------0----0-------0------------------

----------------------------------------------------------------------

--2------------2------------2------------2----------------------------

I won't let you down

----------------------------------------------------------------------

--------0------------0------------0------------0----------------------

------0---0--------0---0--------0---0--------0---0--------------------

----0-------0----0-------0----0-------0----0-------0------------------

----------------------------------------------------------------------

--0------------0------------0------------0----------------------------

I won't make a sound

----------------------------------------------------------------------

--------0------------0------------0------------0----------------------

------2---2--------2---2--------2---2--------2---2--------------------

----0-------0----0-------0----0-------0----0-------0------------------

--2------------2------------2------------2----------------------------

----------------------------------------------------------------------

If you stay home with me

----------------------------------------------------------------------

--------0------------0------------0------------0----------------------

------0---0--------0---0--------0---0--------0---0--------------------

----0-------0----0-------0----0-------0----0-------0------------------

--3------------3------------3------------3----------------------------

----------------------------------------------------------------------

I'd never let it go

----------------------------------------------------------------------

--------0------------0------------0------------0----------------------

------0---0--------0---0--------0---0--------0---0--------------------

----0-------0----0-------0----0-------0----0-------0------------------

----------------------------------------------------------------------

--3------------3------------3------------3----------------------------

I won't do you harm

----------------------------------------------------------------------

--------0------------0------------0------------0----------------------

------2---2--------2---2--------2---2--------2---2--------------------

----0-------0----0-------0----0-------0----0-------0------------------

----------------------------------------------------------------------

--2------------2------------2------------2----------------------------

never go far

----------------------------------------------------------------------

--------0------------0------------0------------0----------------------

------0---0--------0---0--------0---0--------0---0--------------------

----0-------0----0-------0----0-------0----0-------0------------------

----------------------------------------------------------------------

--0------------0------------0------------0----------------------------

just stay home with me

----------------------------------------------------------------------

--------0------------0------------0------------0----------------------

------2---2--------2---2--------2---2--------2---2--------------------

----0-------0----0-------0----0-------0----0-------0------------------

--2------------2------------2------------2----------------------------

----------------------------------------------------------------------

----------------------------------------------------------------------

--------0------------0------------0------------0----------------------

------0---0--------0---0--------0---0--------0---0--------------------

----0-------0----0-------0----0-------0----0-------0------------------

--3------------3------------3------------3----------------------------

----------------------------------------------------------------------

Stay home with me

Never look back

I won't let you down

I won't make a sound

If you stay home with me

I'd nevner let go

I won't do you harm

I'd never go far

Just stay home with me

---------------------------------------------

Thomas Dybdahl - Cecilia

Hør på sangen for å få riktig rytme.

A

Cecilia,

E/G# F#m E D

you didn`t wanna give your heart away

Verse1:

D C#

You tear apart with angel eyes like bluebells

D C#

with trembling hearts, you leave your empty shells

Chorus:

A

Cecilia,

E/G# F#m E D

you didn`t wanna give your heart away

A

Cecilia,

E/G# F#m E D

you didn`t wanna leave it all behind

E/G# F#m E D

Here I am

Flesh and bones

E/G# F#m E D

Here I am

Flesh and bones

Verse2:

D

Did he tuch you?

C#

Shameful and disgraced?

D C#

Did he rob your joy of the embrace?

Chorus: (same as the previous one)

--------------------------------

I need love baby love not trouble - Thomas Dybdahl

Chords:

Em-Bm-Am-

F#m-Bb-C#m

intro: Em-Bm-Am

Em Bm Am

Run like hell bitterness found my love's gone bad god is dead now I'm weary

Em Bm Am

always on time, always in place, to put a big smile on you face but no more

Em Bm Am

snap you fingers one more time I cut you up and leave you dying all for one

but one for me

Am/C

my face is pale my eyes don't see

F#m B C#m

I need love, baby love, and not trouble

F#m B C#m

I need love, baby love, and not trouble

F#m B C#m

I need love, baby love, and not trouble

F#m B C#m

I need love, baby love, and not trouble

Em Bm Am

Run like hell bitterness found my love's gone bad god is dead now I'm weary

Em Bm Am

always on time, always in place, to put a big smile on you face but no more

Em Bm Am

snap you fingers one more time I cut you up and leave you dying all for one

but one for me

Am/C

my face is pale my eyes don't see

F#m B C#m

I need love, baby love, and not trouble

F#m H C#m

I need love, baby love, and not trouble

F#m H C#m

I need love, baby love, and not trouble

F#m H C#m

I need love, baby love, and not trouble

solo etc.

e----------------------------

b-------------------12-------

g--------9--h11-p9-----------

d---9-h11--------------------

a----------------------------

e----------------------------

h= hammer on b= bend up rb= release bend p= pull-off

~~= vibrato .= mute note or chord <>= strike note while bent

= slide down

-----------------------------------

Thomas Dybdahl - “a love story” (From "One day you'll dance for me new york city")

Intro: Fmaj7 -Fmaj7/g - C/g

Fmaj7 Fmaj7/g

honey i told you

C/g -13

that these things never last

Fmaj7 Fmaj7/g

and one of these days now

C/g -13 Am Am/g

you`ll start dreaming of the past

G13 Dm7 13

when life was once too short for all the things we`d do

Fmaj7

and the shots we`d call

That's more or less that. But here's the music-sheet if you don't know the chords.

Fmaj7:

e - 0

H - 1

G - 2

D - 3

A - x

E - x

Fmaj7/g:

e - 0

H - 1

G - 2

D - 3

A - x

E - 3

C/g:

e - 0

H - 1

G - 0

D - 2

A - 3

E - 3

C/g 13:

e - 0

H - 3

G - 0

D - 2

A - 3

E - 3

Am/g:

C/g:

e - 0

H - 1

G - 2

D - 2

A - x

E - 3

G13:

C/g:

e - x

H - 3

G - 4

D - 3

A - x

E - 3

Dm7 13:

C/g:

e - 0

H - 6

G - 5

D - 3

A - 5

E - x

That's it.

Lenke til innlegg
Del på andre sider
  • 1 month later...

Opprett en konto eller logg inn for å kommentere

Du må være et medlem for å kunne skrive en kommentar

Opprett konto

Det er enkelt å melde seg inn for å starte en ny konto!

Start en konto

Logg inn

Har du allerede en konto? Logg inn her.

Logg inn nå
  • Hvem er aktive   0 medlemmer

    Ingen innloggede medlemmer aktive

×
×
  • Opprett ny...

Viktig informasjon

Dette nettstedet bruker cookies for å gi deg en best mulig brukeropplevelse Bruksvilkår.