Web Analytics
Jump to content

Moring song


Recommended Posts

  • 1 year later...

-------------------------------------------------------------------------------

Morning Song - Jim Stärk

-------------------------------------------------------------------------------

Tabbed by:Espen Rian Skog

Email:espen.skog@student.uib.no

Tuning:EADGBE

Organ Intro:

e|---------------------------------------------------------------------------|

B|--7h10-7---7---------------------------------------------------------------|

G|--x-----9---9-6-----x------------------------------------------------------|

D|--x-------------7-9-9/10-9-7-----------------------------------------------|

A|--x-----------------x---------9---7-9p7-9----------------------------------|

E|-------------------------------9-------------------------------------------|

The last 4 is later used as a fill

and can be played like this:

e|---------------------------------------------------------------------------|

B|---------------------------------------------------------------------------|

G|---------------------------------------------------------------------------|

D|---2-4p2-4-----------------------------------------------------------------|

A|-4-------------------------------------------------------------------------|

E|---------------------------------------------------------------------------|

(The final note is usually replaced with a simple F#m chord downstroke.)

Verse: F#m B7 Bm

Pre chorus: Doodle with a B7 chord

"tell me how to do this.."

Chorus:A B D

"ok for tomorrow..."

| / slide up

| slide down

| h hammer-on

| p pull-off

| ~ vibrato

| + harmonic

| x Mute note

===============================================================================

Link to comment
Share on other sites

Tips: Legg de i en

code

! da blir de mer riktige ;)

Morning Song - Jim Stärk 

-------------------------------------------------------------------------------

Tabbed by:Espen Rian Skog

Email:espen.skog@student.uib.no



Tuning:EADGBE



Organ Intro:

e|---------------------------------------------------------------------------|

B|--7h10-7---7---------------------------------------------------------------|

G|--x-----9---9-6-----x------------------------------------------------------|

D|--x-------------7-9-9/10-9-7-----------------------------------------------|

A|--x-----------------x---------9---7-9p7-9----------------------------------|

E|-------------------------------9-------------------------------------------|

The last 4 is later used as a fill

and can be played like this:





e|---------------------------------------------------------------------------|

B|---------------------------------------------------------------------------|

G|---------------------------------------------------------------------------|

D|---2-4p2-4-----------------------------------------------------------------|

A|-4-------------------------------------------------------------------------|

E|---------------------------------------------------------------------------|

(The final note is usually replaced with a simple F#m chord downstroke.)



Verse: F#m B7 Bm



Pre chorus: Doodle with a B7 chord

"tell me how to do this.."



Chorus:A B D

"ok for tomorrow..."





| / slide up

|  slide down

| h hammer-on

| p pull-off

| ~ vibrato

| + harmonic

| x Mute note

===============================================================================

Link to comment
Share on other sites

Create an account or sign in to comment

You need to be a member in order to leave a comment

Create an account

Sign up for a new account in our community. It's easy!

Register a new account

Sign in

Already have an account? Sign in here.

Sign In Now
 Share

  • Recently Browsing   0 members

    • No registered users viewing this page.
×
×
  • Create New...

Important Information

By using this site, you agree to our Terms of Use.