Web Analytics
Jump to content

Blackened riffet


Recommended Posts

Jeg klarer ikke finne ut av det første riffet i blackened!

Så langt har jeg kommet

--------------------------------------------------------------?????????

--------------------------------------------------------------?????????

-----------------------------------------------------------???????????

------------------------------------------------------------??????????

----7---7---7h8--7---7---7h13--7---7---7---7h8---???????????

-0---0---0----------0---0----------0---0---0---------??????????

Lenger kommer jeg ikke. Finner ikke noe riktig tab heller. Til og med det som står i de offisielle tab-bøkene er feil!

Link to comment
Share on other sites

Jeg klarer ikke finne ut av det første riffet i blackened!

Så langt har jeg kommet

--------------------------------------------------------------?????????

--------------------------------------------------------------?????????

-----------------------------------------------------------???????????

------------------------------------------------------------??????????

----7---7---7h8--7---7---7h13--7---7---7---7h8---???????????

-0---0---0----------0---0----------0---0---0---------??????????

Lenger kommer jeg ikke. Finner ikke noe riktig tab heller. Til og med det som står i de offisielle tab-bøkene er feil!

Powertab! Loss ned da finner du!

Link to comment
Share on other sites

Create an account or sign in to comment

You need to be a member in order to leave a comment

Create an account

Sign up for a new account in our community. It's easy!

Register a new account

Sign in

Already have an account? Sign in here.

Sign In Now
 Share

  • Recently Browsing   0 members

    • No registered users viewing this page.
×
×
  • Create New...

Important Information

By using this site, you agree to our Terms of Use.