Web Analytics
Gå til innhold
  • Bli medlem

Delillos, Tøff i Pysjamas - Riff


Anbefalte innlegg

  • 4 weeks later...

Vet ikke om du har fikset det eller funnet det ut, men er det dette du lurer på?

-|-------------------------------------

-|-------------------------------------

-|-------0-----0-----0-----0---0----0--

-|-----2-----2-----2-----2-------4-----

-|---3-----3-----3-----3-----5---------

-|-------------------------------------

Lenke til innlegg
Del på andre sider

Vet ikke om du har fikset det eller funnet det ut, men er det dette du lurer på?

-|-------------------------------------

-|-------------------------------------

-|-------0-----0-----0-----0---0----0--

-|-----2-----2-----2-----2-------4-----

-|---3-----3-----3-----3-----5---------

-|-------------------------------------

Jeg har improvisert. Men nå ser det ut som jeg har funnet den rette, tusen takk!

Lenke til innlegg
Del på andre sider
  • 1 year later...

Jeg har improvisert. Men nå ser det ut som jeg har funnet den rette, tusen takk!

Dette stemmer ikke helt!!!!!!!!!!

Gitarkom kan selvfølgelig spilles som nevnt over , det funker, men blir noe annet enn det Lars spiller:

Gitar i hovedtema er slik:

-I---------------------

-I---------------------

-I------0--0--0--0--0-- som gjentas X FLERE

-I-----4--4--4--4--4-4

-I----3--3--3--3--5-5--

-I---------------------

Jeg henviser også til deLillos notebok fra 1992.

Der står akkorden med rett notasjon. Se side 19.

Lars Lillo selv har valgt å kalle denne pussig nok for C* (!!!) Hva nå det enn betyr...

Hovedtemaet er med andre ord en repetisjon av C-F#-G som kombineres med D-F#-X på slutten av vær frase. Dette går som kjent i en loop.

Med vennlig hilsen

forummedl. delillos.no

Asmund Bjørshol

tlf 46620896

Er det annet deLillos-relatert så er jeg behjelpelig.!!

Lenke til innlegg
Del på andre sider

Arkivert

Dette emnet er nå arkivert og stengt for flere svar

  • Hvem er aktive   0 medlemmer

    Ingen innloggede medlemmer aktive

×
×
  • Opprett ny...

Viktig informasjon

Dette nettstedet bruker cookies for å gi deg en best mulig brukeropplevelse Bruksvilkår.