Web Analytics
Gå til innhold
Lykkjen

Metallica, Turn The Page - Intro Solo

Anbefalte innlegg

1b) Kirk 
eb--/15-14~~------------------------
Bb----------15-15~---12~------------
Gb----------------14----12-11~~-----
Db-----------------------------12-14
Ab----------------------------------
Eb----------------------------------

2b) Kirk
eb------------------------------------
Bb------------------------------------
Gb------------------/12-11------------
Db--14-12~~~5-7~~~~~-------12-12~~~7-9
Ab------------------------------------
Eb------------------------------------

Har bare sakset dette fra en tabside, har ikke sjekket om det er riktig, men det er nok tilnærmet likt.

Jeg fant det etter et lite googlesøk, og det vil jeg og oppfordre trådstarter til å prøve neste gang han lurer på noe av samme kaliber :)

Del dette innlegget


Lenke til innlegg
Del på andre sider

Ryddet litt opp her i tråden også.

Svar som "Ja" i en slik tråd blir slettet, dette vet dere, og vi vil helst ikke se det.

/Mod

Del dette innlegget


Lenke til innlegg
Del på andre sider

1b) Kirk 
eb--/15-14~~------------------------
Bb----------15-15~---12~------------
Gb----------------14----12-11~~-----
Db-----------------------------12-14
Ab----------------------------------
Eb----------------------------------

2b) Kirk
eb------------------------------------
Bb------------------------------------
Gb------------------/12-11------------
Db--14-12~~~5-7~~~~~-------12-12~~~7-9
Ab------------------------------------
Eb------------------------------------

Har bare sakset dette fra en tabside, har ikke sjekket om det er riktig, men det er nok tilnærmet likt.

Jeg fant det etter et lite googlesøk, og det vil jeg og oppfordre trådstarter til å prøve neste gang han lurer på noe av samme kaliber :)

Det var akkurat det jeg gjorde, men det høres ikke riktig ut...

Endret av Lykkjen

Del dette innlegget


Lenke til innlegg
Del på andre sider

Gitaren er stemt ned halvtone, har du husket det? :)

Nå har jeg hørt litt mer på sangen, og tror den egentlig er ganske riktig!

Takk for svar!

Del dette innlegget


Lenke til innlegg
Del på andre sider

Det var akkurat det jeg gjorde, men det høres ikke riktig ut...

Finga spiller også en rolle ;)

Del dette innlegget


Lenke til innlegg
Del på andre sider

Opprett en konto eller logg inn for å kommentere

Du må være et medlem for å kunne skrive en kommentar

Opprett konto

Det er enkelt å melde seg inn for å starte en ny konto!

Start en konto

Logg inn

Har du allerede en konto? Logg inn her.

Logg inn nå

  • Hvem er aktive   0 medlemmer

    Ingen innloggede medlemmer aktive

×
×
  • Opprett ny...

Viktig informasjon

Dette nettstedet bruker cookies for å gi deg en best mulig brukeropplevelse Bruksvilkår.