Web Analytics
Jump to content

Folkevise: Kråkevisa


Recommended Posts

Hei godtfolk.

Jeg syns denne visa er fantastisk og bestemte meg for å lære meg den.

Så jeg fant en tekst og slang på akkordene som passet for mitt toneleie.

Prøvespill og sjekk om dere syns det er ok.

Kilde til tekst

(litt annerledes tekst og det der men sånn er det jo med viser)

Editx2: Castor lærte meg noe nytt, takk for det. :)

Bm
Og mannen han gjekk seg i veda skog,
Em A Bm
- hei fara, i veda skog. -
Em Bm
Då sat der ei kråka i lunden og gol.
A Bm A F Bm
- Hei fara. Faltu riltu raltura. -


Bm
Mannen han tenkte med sjølve seg;
Em A Bm
- hei fara, med sjølve seg
Em Bm
Skal tru no den kråka vil drepa meg?
A Bm A F Bm
- Hei fara. Faltu riltu raltura. -


Bm
Og mannen han snudde om hesten sin,
Em A Bm
- hei fara, om hesten sin
Em Bm
så køyrde han heim att til garden igjen.
A Bm A F Bm
- Hei fara. Faltu riltu raltura. -


Bm
Å høyr, du min mann, kva eg spøre deg:
Em A Bm
- hei fara, eg spøre deg
Em Bm
"Kvar vart det av veden du køyrde til meg?"
A Bm A F Bm
- Hei fara. Faltu riltu raltura. -


Bm
"Eg køyrde no slett ingen ved til deg,
Em A Bm
- hei fara, ingen ved til deg
Em Bm
for kråka ho svor ho sku drepa meg."
A Bm A F Bm
- Hei fara. Faltu riltu raltura. -


Bm
"Å no har eg aldri høyrt større skam!
Em A Bm
- hei fara, no større skam
Em Bm
Har du høyrt at ei kråke har drepe ein mann?"
A Bm A F Bm
- Hei fara. Faltu riltu raltura. -


Bm
Men kråka kom etter på taket og gol,
Em A Bm
- hei fara, på taket og gol
Em Bm
og mannen hen opp gjennom ljoren for.
A Bm A F Bm
- Hei fara. Faltu riltu raltura. -


Bm
Og mannen han spente sin boge for kne,
Em A Bm
- hei fara, sin boge for kne
Em Bm
så skaut han den kråka, så ho datt ned.
A Bm A F Bm
- Hei fara. Faltu riltu raltura. -


Bm
Så spente han føre dei folane ti;
Em A Bm
- hei fara, dei folane ti
Em Bm
men kråka ho sprengde alle di.
A Bm A F Bm
- Hei fara. Faltu riltu raltura. -


Bm
Så spente han føre dei folane tolv,
Em A Bm
- hei fara, dei folane tolv
Em Bm
så køyrde han kråka på låvegolv.
A Bm A F Bm
- Hei fara. Faltu riltu raltura. -


Bm
Så flådde han kråka og lema ho sund,
Em A Bm
- hei fara, og lema ho sund
Em Bm
ho vog innpå seksten og tjue pund.
A Bm A F Bm
- Hei fara. Faltu riltu raltura. -


Bm
Av skinnet så gjorde han tolv par skor,
Em A Bm
- hei fara, tolv par sko
Em Bm
det beste paret det gav han til mor.
A Bm A F Bm
- Hei fara. Faltu riltu raltura. -


Bm
Og kjøtet han salta i tunner og fat,
Em A Bm
- hei fara, i tunner og fat
Em Bm
og tunga han hadde til julemat.
A Bm A F Bm
- Hei fara. Faltu riltu raltura. -


Bm
Av tarmane gjorde han tolv par reip,
Em A Bm
- hei fara, tolv par reip
Em Bm
og klørne han brukte til møka-greip.
A Bm A F Bm
- Hei fara. Faltu riltu raltura. -


Bm
Og nebben han brukte til kyrkje-båt,
Em A Bm
- hei fara, til kyrkje-båt
Em Bm
som folk kunne sigla på frå og åt.
A Bm A F Bm
- Hei fara. Faltu riltu raltura. -


Bm
Og munnen han brukte te mala korn,
Em A Bm
- hei fara, te mala korn
Em Bm
og øyro han gjorde til tutar-horn.
A Bm A F Bm
- Hei fara. Faltu riltu raltura. -


Bm
Av augo så gjorde han stoveglas
Em A Bm
- hei fara, til stoveglas
Em Bm
og nakken han sette på kyrkja til stas.
A Bm A F Bm
- Hei fara. Faltu riltu raltura. -


Bm
Og den som kje kråka han nytta så,
Em A Bm
- hei fara, nytta så
Em Bm
han er ikkje verd ei kråka å få.
A Bm A F Bm
- Hei fara. Faltu riltu raltura. -


Lead-gitar:
|-----------------------------------------------------------------------------------
|-----------------------------------------------------------------------------------
|-----------------------------------------------------------------------------------
|-----------------------4---4--4------5--7--5--4--2--2---0h2--4-----------
|---2---2--2--0--2---------------------------------------------------------------
|------------------------------------------------------------------------------------


|----------------------------------------------------------------------------------------------------
|----------------------------------------------------------------------------------------------------
|----------------------------------------------------------------------------------------------------
|--4----0--2--4--0--2--4---2---------------------------------4--4---4---2-------------------
|--------------------------------------4--5----4----0-2---2---------------------5--4----0--2--
|----------------------------------------------------------------------------------------------------

Edited by CalmLikeABomb
Link to comment
Share on other sites

  • 2 weeks later...

Høres riktig ut det, men synes den F'en på slutten høres i sprekeste laget ut, hvertfall så lenge man spiller hele akkorden og ikke powerchords.

ellers synes jeg det låter litt merkelig med 2 - 0 i starten på melodien, mer 2 - 1. Samme på slutten, men der høres det ikke så galt ut sånn det står

Edited by mrj
Link to comment
Share on other sites

Create an account or sign in to comment

You need to be a member in order to leave a comment

Create an account

Sign up for a new account in our community. It's easy!

Register a new account

Sign in

Already have an account? Sign in here.

Sign In Now
 Share

  • Recently Browsing   0 members

    No registered users viewing this page.

×
×
  • Create New...

Important Information

By using this site, you agree to our Terms of Use.