Web Analytics
Jump to content

Middels vanskelige og gode akustiske sanger på gitar


Recommended Posts

Noen som har noen tips? Tenker på sanger som er kjente og som er middels vanskelig å spille eller lette alt etter som. (Gjerne med link.)

Har to forslag:

Neil Young - Heart Of Gold

http://www.ultimate-guitar.com/tabs/n/neil...of_gold_crd.htm

The Connells - 74-75

http://www.ultimate-guitar.com/tabs/c/connells/74-75_crd.htm

Likte tabene/chord godt, da det var inkludert "riffs"..

Link to comment
Share on other sites

Johnny Cash - Hurt

Enkel låt som låter godt..

I verset spilles akkordene omtrent slik :

---------0--

---------0--

---------2--

-----2---2--

--0---------

------------

Man plukker altså de to første strengene og slår ann resten, eventuelt kan man også plukke de resterende parallelt.

Vers :

Am C D Am C D (Den første D akkorden kan også spilles som Dsus2 ? - Altså : XX0230 Det er vel egentlig det riktige om jeg ikke husker feil)

Siste vers før refreng :

Am C D Am C D G (G markerer overgangen til vanlig anslag)

Refreng :

I refrenget spilles akkordene med vanlig "strumming" - hør på låta ! Meget enkelt.

Am F C G (x2)

Am F G G

Am F G Am (Am markerer overgangen til vers igjen)

- ! - Med alle forbehold om at jeg husker noenlunde riktig :)

Link to comment
Share on other sites

Chris Isaak - Forever Blue

En tristere sang er vel knapt skrevet :) Hvis ikke denne smelter ungpige hjertene (eller gamlis pumpene) så vet ikke jeg :D

Jeg er ikke helt sikker på hva "middels vanskelig" er, men her er det stort sett enkle akkorder hvis man kan barrè grep. Greia med denne låta (som så mange andre) er å spille den noenlunde slik som originalen hva angår picking, rytme og anslag.

I all hovedsak går låten slik :

A, F#M, C#m, A, F#M, C#m

D, A, E, F, E, A, E

Men greia er altså variasjonene og pickingen - Første vers og refreng er omtrent slik :

-A---F#m--C#m-----------------A-------F#m-----C#m-----

-0----2----4-4-------------------------2-2------4-4-------

-2----2----5--5---5--------------2-----2-2------5--5---5--

-2----2----6----6---6---6-------2------2-2------6----6----

-2----4----6----------6--------2-------4-4------6---------

-0----4----4------------------0--------4-4------4---------

------2--------------------------------2-2---------------

---D-----A-----E--------------A-----F------------E----------A-----------E----------

---2-----0-------------------------------------------------------------------------

---3-----2-------------0------2-----------------------------------2----------------

---2-----2-----------1--------2------------2-----------1--------2--------------1---

---0-----2---------2----------2----------3-----------2--------2--------------2-----

---------0-------2------------0--------3-----------2--------0--------------2-------

---------------0---------------------1-----------0-----------------------0---------

Så fortsetter det med samme akkorder men litt variasjon i pickingen, men det er relativt enkelt å høre egentlig.

I broen (?) er akkordene slik :

Ab7, A, Ab7, D, A, E, A, F, E, A, E

Ab7 kan spilles slik (med en variasjon som følger melodien)

-2---4---2--

-1---1---1--

-1---1---1--

-1---1---1--

------------

------------

På slutten av siste refreng er det en liten "outro"

A, E, A, F, E, A, F, E, Gm-Em-Dm, A

Gm, Em og Dm spilles som Barrè akkorder i Amoll figur uten å slå an A strengen på henholdsvis 10, 7 og 5'te bånd

altså slik (Gm) :

--10--

--11--

--12--

--12--

------

------

Link to comment
Share on other sites

Create an account or sign in to comment

You need to be a member in order to leave a comment

Create an account

Sign up for a new account in our community. It's easy!

Register a new account

Sign in

Already have an account? Sign in here.

Sign In Now
 Share

  • Recently Browsing   0 members

    No registered users viewing this page.

×
×
  • Create New...

Important Information

By using this site, you agree to our Terms of Use.