Web Analytics
Jump to content

Hellbillies - So som so intro


Recommended Posts

Lurer litt på noe i introen. har lært det men husker ikke, og klarer ikke helt å plukke det. ville satt pris på litt hjelp.

og syns du det er uoversiktlig og ikke skjønner hva jeg allerede har gjort..så care! ikke gidd å begynn å krangle.

kjenner du sangen så veit du hva jeg mener!

|-3-3-3-3-3-|-10-10-10-10-----|

|-3^----- -3-|-10^------10-----|

|------------5|--------------12---|

|-------------|--------------------|

|-------------|--------------------|

|-------------|--------------------|

hva kommer i mellom de to her?

|---5-3-----|-----12--10---------|

|-3^---3---|-10^--------10------|

|-----------|-----------------------|

|-----------|-----------------------|

|-----------|-----------------------|

|-----------|-----------------------|

pluss det etter her.

på forhånd takk :rolleyes:

Link to comment
Share on other sites

Create an account or sign in to comment

You need to be a member in order to leave a comment

Create an account

Sign up for a new account in our community. It's easy!

Register a new account

Sign in

Already have an account? Sign in here.

Sign In Now
 Share

  • Recently Browsing   0 members

    No registered users viewing this page.

×
×
  • Create New...

Important Information

By using this site, you agree to our Terms of Use.