Web Analytics
Jump to content

Flåklypa


Recommended Posts

|---0-2-3-2-0-----|-----------------|------------|

|-0-----------3-0-|-----0-1-0-------|-0----------|

|-----------------|-0-2-------2-0-2-|---2-0------|

|-------------0---|-----------------|-------4----|

|-----2-----3-----|-----------0-----|-2-----2----|

|-0-------------3-|-----0-----------|------------|

|---0-2-3-2-0-----|----------------------|

|-0-----------3-0-|-----0----------------|

|-----------------|-0-2---2-0------------|

|-------------0---|-----------4-2-1-2----|

|-----2-----3-----|-----------2-2-2------|

|-0-------------3-|-----0-----------0----|

Fikk dette hos en ukjent forumist her, bare peis det inn på notisblokk.

Link to comment
Share on other sites

  • 2 weeks later...

e-0-5-7-8-7-5-3-0-------------------------------0-5-7-8-7-5-3-0------------------------|

e --------------------1-3-5-6-5-3-1-3-5-3-1-0----------------------1-3-5-3-1-0---------|

e ---------------------------------------------------------------------------------------2-1-2--|

E -----------------------------------------------------------------------------------------------|

E -----------------------------------------------------------------------------------------------|

E------------------------------------------------------------------------------------------------|

Den høres ganske rett ut for meg

Fant denne på www.ultimate-guitar.com ^_^

Edited by Minde94
Link to comment
Share on other sites

|---0-2-3-2-0-----|-----------------|------------|

|-0-----------3-0-|-----0-1-0-------|-0----------|

|-----------------|-0-2-------2-0-2-|---2-0------|

|-------------0---|-----------------|-------4----|

|-----2-----3-----|-----------0-----|-2-----2----|

|-0-------------3-|-----0-----------|------------|

|---0-2-3-2-0-----|----------------------|

|-0-----------3-0-|-----0----------------|

|-----------------|-0-2---2-0------------|

|-------------0---|-----------4-2-1-2----|

|-----2-----3-----|-----------2-2-2------|

|-0-------------3-|-----0-----------0----|

Fikk dette hos en ukjent forumist her, bare peis det inn på notisblokk.

Ville brukt denne som utgangspunkt ivertfall.

Jeg har faktisk tenkt litt på å spille en akustisk intro, og så kansje prøve å spille inn

en metal versjon av denne, alt hørtes riktig ut i hodet x)

*høre for seg*

Link to comment
Share on other sites

Create an account or sign in to comment

You need to be a member in order to leave a comment

Create an account

Sign up for a new account in our community. It's easy!

Register a new account

Sign in

Already have an account? Sign in here.

Sign In Now
 Share

  • Recently Browsing   0 members

    No registered users viewing this page.

×
×
  • Create New...

Important Information

By using this site, you agree to our Terms of Use.