Web Analytics
Jump to content

Noen som har tabs til Got A Match?


Recommended Posts

Jeg er i ferd med å øve inn Got A Match? av Chick Corea. Dette stykket er egentlig for bass, keyboard og slagverk, men jeg vil prøve med gitar. Jeg er i utgangspunktet en improvisasjonsgitarist, og kan ikke noter. Har heller ikke planer om å lære meg det :) . Er det noen som vet hvor jeg kan få tak i tabs og korder for dette stykket?

Link to comment
Share on other sites

  • 2 weeks later...
Tror nok at øret blir det enkleste alternativet.

Det finnes noter av den, med besifring - men de koster en slant.

Jeg er nok ikke i stand til å ta den på øret :( . Da ville jeg jo ikke spurt etter besifring, ikke sant :)

Vet du hvor jeg kan få tak i besifring, selv om det koster en slant?

Link to comment
Share on other sites

Takk for tipset, men er du sikker på at Got A Match? er inkludert i samlingen? Jeg fant ingen oversikt over låtene :)
Song List:

Windows, Armando's Rhumba, Inside Out, Samba Song, Waltz (Lyric Suite), 500 Miles High, Eternal Child, Friends, Senor Mouse, Quartet #1, Quartet #2 PT.2, Quartet #3, The Slide Tones For Joan's Bones, Starlight, Fickle Funk, Got A Match, The One Step, Sicily, Tap Step, High Wire, Humpty Dumpty, King Cockroach, Litha, Night Streets, Spain,

Men ved nærmere ettertanke ser det ut til at dette bare er improvisasjonene hans - og ikke selve låta.

Har likvel kjøpt den selv, Corea er verdt litt studie. :)(

Link to comment
Share on other sites

Fort og gæli:

Dm					A7/C#			Dm/C				 G7/H
-----------------------------------------------------------------------------
--------6-10----------------10------------6-10-8-6-10-8-6-5-8-6-5-----
------7-----------------6-9-------------7-------------------------------8--
--7----------------7----------------7---------------------------------------
-----------------------------------------------------------------------------
-----------------------------------------------------------------------------
Gm D7b9 Gm/F Em7b5 A7#5
--------6-10-------------5-10-------------6-10-8-6-10-8-6-5-8-6-5-----
------8-----------------7----------------8-------------------------------8--
--7----------------7-----------------7---------------------------------------
------------------------------------------------------------------------------
------------------------------------------------------------------------------
------------------------------------------------------------------------------
Em7 A7 Fm7 Bb7 Ebmaj7 Em7b5 A7
--5----------------5-------------6-----------------------------------------5-
-----------------5-------------6---9-8-6-8----------------6-5----------5---
------4-7-4--6------5-8-5-7-------------------------5-7------8-7-5-6-----
------------------------------------------------5-6-8------------------------
------------------------------------------------------------------------------
------------------------------------------------------------------------------
Dm7
------------------------------------------------------------------------------
--8-----6-8-6------8---6----------------------------------------------------
------7--------7-------------7---5---7--------------------------------------
----7-------------------------------------------------------------------------
------------------------------------------------------------------------------
------------------------------------------------------------------------------

Jeg bruker ikke sweeping, og har tilpasset fingersettingen deretter, så sikkert lurt å eksperimentere deg frem til hvordan det funker best teknisk for deg.

Edited by windofpain
Link to comment
Share on other sites

  • 2 weeks later...

Create an account or sign in to comment

You need to be a member in order to leave a comment

Create an account

Sign up for a new account in our community. It's easy!

Register a new account

Sign in

Already have an account? Sign in here.

Sign In Now
 Share

  • Recently Browsing   0 members

    • No registered users viewing this page.
  • Siste aktive tråder

    • Godt tips! Takk 😊  
    • Heisann, Har en Line 6 Helix LT som dessverre blir brukt altfor lite om dagen så er vel på tide å få kvittet seg med den  Ble kjøpt ny på 4Sound Schous Plass (Oslo) i 2017 og har bare blitt brukt hjemme så vil si at den er i så godt som ny stand. Alt av original eske, kvittering osv følger med.  Pris: 8500 kr Sted: Oslo Bilder: Kommer
    • Bright Onion leverer rimelige og bra patchbays. https://www.brightonion.co.uk/4-gang-2/ Har brukt Bright Onion til alle mine patchbays, splittere, aux-switcher etc i noen år nå, aldri noen problemer.
    • Ser behovet for en patch bay. Trenger ikke noe mer fancy enn: gitar inn, 2 inn (fra brettet) og 2 ut (til amper).  Noen som vet om noe bra? Eller kanskje kan lage noe bra?  
    • Det å faktisk prøve gitarer før man kjøper, er jo det aller beste hvis man har mulighet for det. En gitarsjappe vil også sette på et nytt strengesett og gi deg en setup, uten kostnad for deg, hvis det er nødvendig, før du tar med deg gitaren hjem. I hvert fall hvis du ber om det.
  • http://www.BILDELERstore.co.no

  • Støtt driften av GitarNorge


  • Https://Www.AutoDELER.co.NO
×
×
  • Create New...

Important Information

By using this site, you agree to our Terms of Use.