Web Analytics
Jump to content

Tindrum drums of war soloen fra songs of a life time siden !


Recommended Posts

Hallais

Enormt fet solo

sliter litt e å plukke denne,å skulle jerne hatt den solo tabsen..

den lå på songs of a life time sida til dag ingebrigsen før men denna virker vist ikke lengre..

Please Help me !!! :(

Edited by SvartaTosten
Link to comment
Share on other sites

Jeg fant ut at jeg av en eller annen grunn ikke hadde sangen nå. Så jeg får prøve når jeg kommer hjem.

Så flott dette hadde vært supert:):)

sangen ligge vel på youtube mener jeg fra et tv opptak (type playback)

viss du har tilgang til nett på hytta da for all del

Link to comment
Share on other sites

E:-12--8-12-8----------------------------------------------------------------------------:

B:---------------12-10-12-15-12-10-8------------------------------------------------:

G:--------------------------------------------4-0-4-0-7-5-4-0-5-4-2-0-2-0-2/4-0--:

D:------------------------------------------------------------------------------------------:

A:------------------------------------------------------------------------------------------:

E:------------------------------------------------------------------------------------------:

E:------------------------------------------------19br-:

B:------------------------------------------15b--------:

G:----------------------------------7b------------------:

D:-----9---9---10---5-7-5-7-5----------------------:

A:-/7---7---7------------------------------------------:

E:---------------------------------------0---------------:

E:-20-19-17-------------------------------------------------------------------:

B:--------------20-19-17------------------------------------------------------:

G:---------------------------19-17-16-19-17-16--16-17-16-14-16-12-:

D:--------------------------------------------------------------------------------:

A:--------------------------------------------------------------------------------:

E:--------------------------------------------------------------------------------:

E:-----------------------------------------15-15----------------------------------------:

B:---------15-17-13-15-12-13-12--------------------------------------------------:

G:-14-16------------------------------------------9-11-12-14-12-14-16-19-21-:

D:----------------------------------------------------------------------------------------:

A:----------------------------------------------------------------------------------------:

E:----------------------------------------------------------------------------------------:

Tror det der skal være ca. riktig. Spørr hvis det er noe du lurer på ^_^

Link to comment
Share on other sites

  • 5 years later...
Guest
This topic is now closed to further replies.
 Share

  • Recently Browsing   0 members

    • No registered users viewing this page.
  • Siste aktive tråder

    • Fra mylespaul.com/forum: From another forum: Your results may vary- Gibson Pickups DC Resistance Values Gibson Burstbucker Pro (sim: BB1,Alnico5, potted) 7.4 KO Gibson Burstbucker Pro (sim: BB2, Alnico5, potted) 8.0 KO Gibson Burstbucker 1 (Alnico2) 7.5 KO Gibson Burstbucker 2 (Alnico2) 8.0 - 8.4 KO Gibson Burstbucker 3 (Alnico2) 8.2 - 8.8 KO Gibson '57 Classic (Alnico5) 7.44 - 8.5 KO Gibson '57 ClassicPlus (Alnico5) 9.0 - 13.8KO(the 9.0 appears to be a screw-up or faulty PU) Gibson Dirty Fingers (2xCeramic) 16.0 -16.6 KO Gibson Mini-humbucker (Alnico2) 6.0 - 6.4 KO Gibson 490R (Alnico2) 7.2 - 7.83 KO Gibson 490T (Alnico2) 7.9 - 8.53 KO Gibson 498T (Alnico5) 12.32-13.46 KO Gibson 496R (Ceramic) 8.3 - 8.63 KO Gibson 500T (Ceramic) 14 – 15 KO Gibson Angus Young (Alnico5) 13.5 KO Gibson Tommy Iommi (Alnico2+Ceramic) 16.5 KO Gibson Joe Perry(BB2&3?) (Alnico5) 8.4(neck)-8.8 KO(bridge) Gibson Jimmy Page (Alnico5) 7-8 KO(not found yet, but I reckon within these values) Gibson P-90R (Alnico5) 7.7 - 8.5 KO Gibson P-90T (Alnico5) 7.8 - 9.35 KO Gibson P-100R (Alnico5) 6.1 KO Gibson P-100T (Alnico5) 9.4 - 16.0 KO Gibson P-94R (Alnico5) 8.1 KO Gibson P-94T (Alnico5) 9.1 KO Gibson HB-R (Alnico5) 7.06 - 9.13 KO Gibson HB-L (Alnico5) 13.39 - 15.3 KO
    • Støtter BB Pro.  Akkurat dette med dårlig merking av pickups er en uting. Jeg har handlet en god del BKP det siste året, og de er definitivt verst på dette (absolutt ingen merking..). 
    • Siden de er merket med Alnico V, vil jeg si at det er BB Pro.
    • Pent brukt akkurat passe liten/stor og akkurat passe mye lyd til små øvinger / gigs. Liten, lett og allsidig !  Liten ‘rift i Tolexen’. Og billig ! 1900,-  Tranby.  
  • http://www.BILDELERstore.co.no

  • Støtt driften av GitarNorge


  • Https://Www.AutoDELER.co.NO
×
×
  • Create New...

Important Information

By using this site, you agree to our Terms of Use.