Gå til innhold

Anbefalte innlegg

Hei

Må lære introen på sangen "Far Away" med Nickelback til et opplegg på skolen. Det eneste problemet er da at alt jeg finner på internett av intro tabs er i H. Vi har endret resten av sangen til C og jeg trenger derfor introen i C også.

Mitt spørsmål er da om noen kan vise meg hvordan jeg spiller den i C (eventuelt sende link til en side hvor det står).

E||--------------------------|--------------------------|

B||---------0--------0-----0--|--------0--------0-----0--|

G||---------------3-----3-----|--------------3-----3-----|

D||------4-----4--------------|-----4-----4--------------|

A||--2-----------------------|--------------------------|

E||--------------------------|--2-----------------------|

--------------------------|--------------------------|

------------0--------0-----0--|--------0-----2-----------|

-------------------3-----3-----|-----------------4-----4--|

-------4-----4--------------|-----4-----4--------4-----|

--------------------------|--------------------------|

--4-----------------------|--0-----------------------|

Del dette innlegget


Lenke til innlegg
Del på andre sider

Eller bare stem gitaren en havltone opp

Del dette innlegget


Lenke til innlegg
Del på andre sider

Opprett en konto eller logg inn for å kommentere

Du må være et medlem for å kunne skrive en kommentar

Opprett konto

Det er enkelt å melde seg inn for å starte en ny konto!

Start en konto

Logg inn

Har du allerede en konto? Logg inn her.

Logg inn nå

  • Hvem er aktive   0 medlemmer

    Ingen innloggede medlemmer aktive

×
×
  • Opprett ny...

Viktig informasjon

Dette nettstedet bruker cookies for å gi deg en best mulig brukeropplevelse Bruksvilkår.