Gå til innhold
spetwols

Help med spilling av tabs :S

Anbefalte innlegg

Hei. Når jeg ser på tabs på 911 tabs osv.

this tab really sounds with the song.

Tuning: EADGBe

its much easier with capo on the 3rd fred.

e|------------|------------|------------|-------------|

B|--44--4-4---|------4-4---|--44--4-4---|---66--6-6---|

G|-(5)---5-5--|-(5)----5-5-|-(3)---5-5--|--(3)---3-3--|

D|------------|--33--------|------------|-------------|

A|--3---------|------------|--6---------|---5---------|

E|------------|--4---------|------------|-------------|

Har capo. Åssen spiller jeg denna sangen ? Skjønner ikke 44-4-4 hmm. Sanger er apologize av timbaland foresten.

Veldig takknemlig vist noern vil hjelpe meg :rolleyes:

Del dette innlegget


Lenke til innlegg
Del på andre sider

Du har strengene vertikalt - den tynneste øverst. 44-4-4 betyr i dette tilfellet at du skal spille på 4. bånd på den nest tykkeste strengen. Tall som står horisontalt likt skal spilles samtidig, det vil si at du alle først i stykket du limte skal spille 4. bånd på b-streng og 3. bånd på a-strengen samtidig. (Se bort fra parentesen foreløpig)

Del dette innlegget


Lenke til innlegg
Del på andre sider

Vær smart, lær deg noe du har bruk for. Ingenting av musikken på The Voice er verdt å bruke sin energi på å lære. -_-

Del dette innlegget


Lenke til innlegg
Del på andre sider
Vær smart, lær deg noe du har bruk for. Ingenting av musikken på The Voice er verdt å bruke sin energi på å lære. -_-

-1

Del dette innlegget


Lenke til innlegg
Del på andre sider

Men som denne. Da Whiskey Lullably Tab by Brad Paisley

Song:Whiskey Lullaby

Written By:Brad Paisley and Allison Krause

Transcribed by: JOSH SHAW

6/09/04

LEGEND

harmonic 12*

slide s

hammer on h

pull off p

E----0h2-2-0-------------0h2--2--0-----5--5s7---7s9h10---9---------------|

B-------------3-2-0------------------3------------------------12*--------|

G-------------------------------------------------------------12*--------|

D------------------------------------------------------------------------|

A------------------------------------------------------------------------|

E------------------------------------------------------------------------|

She put him out /

E---------------0----0----------------------------------------------------|

B--------2----2----2---2--------------------------------------------------|

G------3----3----3-------3------------------------------------------------|

D----0--------------------------------------------------------------------|

A-------------------------------------------------------------------------|

E-------------------------------------------------------------------------|

Er det ikke grep jeg skal spille ? Hehe skjønner iokke

Del dette innlegget


Lenke til innlegg
Del på andre sider
Du har strengene vertikalt - den tynneste øverst. 44-4-4 betyr i dette tilfellet at du skal spille på 4. bånd på den nest tykkeste strengen. Tall som står horisontalt likt skal spilles samtidig, det vil si at du alle først i stykket du limte skal spille 4. bånd på b-streng og 3. bånd på a-strengen samtidig. (Se bort fra parentesen foreløpig)

TYNNESTE hvertfall :P

Del dette innlegget


Lenke til innlegg
Del på andre sider

det er akkurat som et bilde av gripebrettet, du skal spille i det båndet som tallet sier på den strengen tallet står skrevet på. og nei, dette er ikke grep. da må du søke opp akkordene til sangen.

Del dette innlegget


Lenke til innlegg
Del på andre sider
E----0h2-2-0-------------0h2--2--0-----5--5s7---7s9h10---9---------------|

B-------------3-2-0------------------3------------------------12*--------|

G-------------------------------------------------------------12*--------|

D------------------------------------------------------------------------|

A------------------------------------------------------------------------|

E------------------------------------------------------------------------|

She put him out /

E---------------0----0----------------------------------------------------|

B--------2----2----2---2--------------------------------------------------|

G------3----3----3-------3------------------------------------------------|

D----0--------------------------------------------------------------------|

A-------------------------------------------------------------------------|

E-------------------------------------------------------------------------|

Er det ikke grep jeg skal spille ? Hehe skjønner iokke

Dette er fingerspill, hvor den øverste strengen på "taben" er den nederste på gitaren, den nest øverste er den nest nederste på gitaren også videre. Nummeret viser på hvilket bånd du skal holde inn strengen.

Som sagt av fido007 så må du se etter chords for å få en versjon hvor du spiller med grep.

Del dette innlegget


Lenke til innlegg
Del på andre sider

Veldig morsomt hvordan opp og ned blir brukt om en gitar. Lenger ned på halsen vil alltid si lenger unna kroppen, ettersom tonene blir lavere for hver streng i den retningen. Den laveste strengen på en gitar er den som er stemt lavest, den tykke E-strengen. Så, for å unngå fortvilelse og komplikasjoner er det like greit å bli vant til det med en gang.

Så, tabs. Tabs er en tidslinje. Du kan godt se for deg at du holder en bok over hele greia. Så flytter du boka i jevn hastighet fra venstre mot høyre. Da vil du stadig se nye tall komme til syne. Disse tallene representerer nummererte bånd på gitaren. 1 er første bånd, 2 andre bånd osv. Du skal spille alt som kommer frem. Er det ett tall, så spiller du det tallet på riktig streng. Ofte er det flere samtidig, på flere strenger, da spiller du dem samtidig.

I siste eksempelet er det fingerspill. Da kan det være lurt å finne ut hvilken akkord som spilles, istedenfor å pugge tall som ikke sier deg noe. Tabs er fordummende, ikke ment personlig. Men spiller du bare etter tabs har du mye å hente inn igjen senere. Greit å kunne bruke, dumt å misbruke. Ikke glem ørene, dine ører. :)

Del dette innlegget


Lenke til innlegg
Del på andre sider

Tabs er blitt et onde for dagens unge gitarister.

Del dette innlegget


Lenke til innlegg
Del på andre sider

Det som er noe dritt med tabs er at det ikke oppgir rytmen. Derfor er et tips å lære seg å spille etter tabs + rytmenotasjon til å begynne med. Så kan man etterhvert lære seg hvor de forskjellige tonene er plasert i notasjonen. Det var ihvertfall sånn jeg lærte å spille etter noter og har nesten kutta ut tabs nå.

Del dette innlegget


Lenke til innlegg
Del på andre sider
Det som er noe dritt med tabs er at det ikke oppgir rytmen. Derfor er et tips å lære seg å spille etter tabs + rytmenotasjon til å begynne med. Så kan man etterhvert lære seg hvor de forskjellige tonene er plasert i notasjonen. Det var ihvertfall sånn jeg lærte å spille etter noter og har nesten kutta ut tabs nå.

+1 derfor får man desverre MANGE gitarister uten sans for rytme og timing.

Del dette innlegget


Lenke til innlegg
Del på andre sider

Opprett en konto eller logg inn for å kommentere

Du må være et medlem for å kunne skrive en kommentar

Opprett konto

Det er enkelt å melde seg inn for å starte en ny konto!

Start en konto

Logg inn

Har du allerede en konto? Logg inn her.

Logg inn nå

  • Hvem er aktive   0 medlemmer

    Ingen innloggede medlemmer aktive

×
×
  • Opprett ny...

Viktig informasjon

Dette nettstedet bruker cookies for å gi deg en best mulig brukeropplevelse Bruksvilkår.