Web Analytics
Jump to content

tabs til Erik Faber`s Century???


Recommended Posts

---------------------------------------------------

--------9---8--6--4--------------------------------

---------------------------------------------------

---10----------------------------------------------

---------------------------------------------------

---------------------------------------------------

noe av den, tror jeg!! noen some kan noe mer???

Link to comment
Share on other sites

Forslag

---------4--3---1--------------------------------------

-------------------4--1----------1--1~~~~~~-

-----5-------------------1--3--------------------

-------------------------------------------------------

-----------------------------------------------------

---------------------------------------------------------

men det kan hende eg ikke husker helt ossen tonen var så.... :wink:

Link to comment
Share on other sites

  • 5 months later...

Create an account or sign in to comment

You need to be a member in order to leave a comment

Create an account

Sign up for a new account in our community. It's easy!

Register a new account

Sign in

Already have an account? Sign in here.

Sign In Now
 Share

  • Recently Browsing   0 members

    No registered users viewing this page.

×
×
  • Create New...

Important Information

By using this site, you agree to our Terms of Use.