Web Analytics
Jump to content

Noen som vil lage tekst?


Recommended Posts

Noen som vil lage tekst til denne Melodien? Vertfall prøve?

Her kan dere høre melodien: Her!!!


Hovud Del (Jostein)
|--3--3--3--3--4--4--3--3--|
|--4--4--4--4--4--4--3--3--|
|--5--5--5--5--5--5--4--4--|
|--5--5--5--5--6--6--5--5--|
|--3--3--3--3--6--6--5--5--|
|--3--3--3--3--4--4--3--3--|

Fill In (Kenneth)
|------------------------------|
|------------------------------|
|------------------------------|
|--9--9--9--9--12--12--11--11--|
|--9--9--9--9--12--12--11--11--|
|--7--7--7--7--11--11--9 --9 --|

|------------------------------|
|------------------------------|
|--------------12--12--11--11--|
|--9--9--9--9--12--12--11--11--|
|--9--9--9--9--10--10--9 --9 --|
|--7--7--7--7------------------|


Solo/Riff (Kenneth)
|------------------------------|
|------------------------------|
|------------------------------|
|--9-9-9-9-9-9-10-10-12-12-----|
|------------------------------|
|------------------------------|

|------------------------------|
|------------------------------|
|--------------10-10-12-12-----|
|--9-9-9-9-9-9-----------------|
|------------------------------|
|------------------------------|

Bass (Pieter)
|------------------------------|
|------------------------------|
|-3-3-3-3-3-3------------------|
|--------------4-4-4-4-3-3-3-3-|

|------------------------------|
|------------------------------|
|-3-3-3-3-3-5-5-5-5------------|
|-------------------3-3-3-3-3--|

Eller/Bass (Pieter)
|------------------------------|
|------------------------------|
|------------------------------|
|-3-3-3-3-3-6-6-6-6-5-5-5-5----|

Link to comment
Share on other sites

Guest Oscar

Er det ikke bedre om dere lager teksten selv? dere kan finne ut hva sangen skal handle om, så kan folk hjelpe dere med å gjøre teksten mer "rytmisk".

Link to comment
Share on other sites

  • 2 weeks later...

Her må det jobbes og få mer struktur. Skal en tekst komme på plass bør det bli mer skille mellom hva som er hva av de forskjellige seksjonene i sangen. Ellers som nevnt tidligere, hva vil dere at sangen skal omhandle?

Link to comment
Share on other sites

Sorry for OT, men en gang da jeg så på TV, så jeg på en film, og der var det to jenter som sang den, åsså var filmen kjedelig, så jeg skifta til NRK, og jammen stod Annie Lennox og sang den samme sangen på den nelson Mandela kosnerten.

Link to comment
Share on other sites

Create an account or sign in to comment

You need to be a member in order to leave a comment

Create an account

Sign up for a new account in our community. It's easy!

Register a new account

Sign in

Already have an account? Sign in here.

Sign In Now
 Share

  • Recently Browsing   0 members

    • No registered users viewing this page.
  • Siste aktive tråder

    • Jo,jo.Som du sier,det er moro å prøve seg fram. Tips:Ta vare på originale pickuper og annet stash fra gitaren,slik at du kan sette den i original stand når du eventuelt selger den.Folk vil helst ha gitarer i original stand,og er ikke villig til å betale det ekstra som du har kostet på den.
    • Tenker litt av poenget er stor forskjell egentlig. Bør bli interessante muligheter for å diale inn diverse toner i midtstilling, spesielt om jeg legger på en coilsplit av humbuckeren og. Risikoen er vel heller ikke superstor siden det går an å kjøpe til en som matcher bedre og ta den som blir til overs i en annen gitar. Eller selge. Får vel alltids igjen noen kroner for sånt. Har jækla lyst til å prøve altså. Titte på videoen nå EDIT: Må vel innrømme at jeg EGENTLIG tenkte å prøve med noe fra Guitar Fetish, men stadig utsolgt det jeg skal ha og da eser budsjettet fort ut....
    • Har prøvd dette selv,Lollar Novel 90 i neck og Seymour Duncan JB i bridge.Det ble for stor forskjell mellom pickupene.Spørs også hva du hovedsakelig spiller (clean/dirty/full distortion).Egentlig trenger du to gitarer,hehe:  
    • Fylle på litt før forumet slettes Siden sist har jeg lært meg å planslipe bånd, og får det ganske greit til etterhvert. Gamle gitarer tas til nye høyder samtidig som action går motsatt vei...siste prosjekt var rustfri og det ble definitivt mer jobb men håndterbart. Har satt sammen et kit (bilde) som fikk full tlc på bånd og hals, og den ble faktisk utrolig fin å spille på. Grapthech oversadel og Gotoh låsbare stemmeskruer, og jeg begynner å like denne gitaren mer enn jeg hadde tenkt. Gitt at halsen ble så bra vurderer jeg sterkt å hive ut de (ok til å være billige) originale humbuckerene, og sette inn en Seymour Duncan SPH90 Phat Cat (P90 i humbuckerformat) i halsposisjon, og en Bare Knuckle Boot Camp True Grit ved broa. Vet, mye penger og galskap på en el cheapo gitar men siden den er i ferd med å bli elsket er det kanskje ikke så dumt? Pickupene er jo også flyttbare om det skulle bli aktuelt senere.. Hva tenker folket om å kombinere en singelcoil av denne typen i neck og sånn humbucker i bridge?
    • Øvet solist, dame 64 år søker gitarist. Ulike stilarter 😊
  • http://www.BILDELERstore.co.no

  • Støtt driften av GitarNorge


  • Https://Www.AutoDELER.co.NO
×
×
  • Create New...

Important Information

By using this site, you agree to our Terms of Use.