Gå til innhold
Vrimmel

Sweeping for nybegynnere

Anbefalte innlegg

Hei, jeg så litt på arpeggioetuden på gitarnorge, men syntes den var litt for vanskelig. Jeg lurer på om det er noen sanger som er fine å bruke til å lære enkel sweeping og som ikke er så altfor raske.

Del dette innlegget


Lenke til innlegg
Del på andre sider


|-17-14------14-17---|
|------15--15--------|
|--------14----------|
|--------------------|
|--------------------|
|--------------------|

i D.. veldig enkelt mønster

Del dette innlegget


Lenke til innlegg
Del på andre sider

Takk for svaret, men jeg tenke på noe litt mindre banalt enn det der. Noe med litt flere akkorder sammen som lager en slags sang, men en litt lett en. Jeg mente egentllig noe som en slags mellomting mellom det du har der og, øvelsen jeg snakket om i posten min. og som helst bruker alle fingrene og strenger, men som ikke er så veldig raskt. og som tar for seg litt forskjellige sweepingteknikker.

Så i korte ord, en enkel akkordprogresjon eller hva det heter :P

Del dette innlegget


Lenke til innlegg
Del på andre sider

final countdown ka brukes som sweeping.......

Del dette innlegget


Lenke til innlegg
Del på andre sider

final countdown ka brukes som sweeping.......

Finnes ikke sweeping i Final Countdown.

Del dette innlegget


Lenke til innlegg
Del på andre sider

det kan du banne på at det gjør.... fungerer hvertfall greit for nybegynnere!!!!!!!!

Del dette innlegget


Lenke til innlegg
Del på andre sider

final countdown ka brukes som sweeping.......

Finnes ikke sweeping i Final Countdown.

Begynnelsen av soloen kan du sweepe eller tappe, men John Norum bruker alternate picking. Litt off topic det der :)

Del dette innlegget


Lenke til innlegg
Del på andre sider

Takk for svaret, men jeg tenke på noe litt mindre banalt enn det der. Noe med litt flere akkorder sammen som lager en slags sang, men en litt lett en. Jeg mente egentllig noe som en slags mellomting mellom det du har der og, øvelsen jeg snakket om i posten min. og som helst bruker alle fingrene og strenger, men som ikke er så veldig raskt. og som tar for seg litt forskjellige sweepingteknikker.

Så i korte ord, en enkel akkordprogresjon eller hva det heter :P

hmm..

prøv denne progresjonen G - F#Maj7#5 - E - D - C - G - C - D (om du sweeper arpeggioene, så blir det "Go Off" :P )

Del dette innlegget


Lenke til innlegg
Del på andre sider

Sweep delen fra Beyond This Life av Dream Theater er ganske enkel:


^ ^ ^ ^ v v v v ^ ^ ^ ^ v v v v
E||-----------19-19-------------------19-19----------|
B||--------21-------21-------------21-------21-------|
G||-----22-------------22-------22-------------22----|
D||--23-------------------23-23-------------------23-|
A||--------------------------------------------------|
E||--------------------------------------------------|


-----------19-19-------------------19-19----------|
--------21-------21-------------21-------21-------|
-----22-------------22-------22-------------22----|
--23-------------------23-23-------------------23-|
--------------------------------------------------|
--------------------------------------------------|


-----------18-18-------------------18-18----------|
--------20-------20-------------20-------20-------|
-----21-------------21-------21-------------21----|
--22-------------------22-22-------------------22-|
--------------------------------------------------|
--------------------------------------------------|

-----------15-15-------------------16-16----------||
--------17-------17-------------18-------18-------||
-----18-------------18-------19-------------19----||
--19-------------------19-20-------------------20-||
--------------------------------------------------||
--------------------------------------------------||

Del dette innlegget


Lenke til innlegg
Del på andre sider

det kan du banne på at det gjør.... fungerer hvertfall greit for nybegynnere!!!!!!!!

Det finnes ikke sweeping i "Final Countdown", men det er sikkert mulig å gjøre om arpeggioene til sweeping.

sa at det var ''mulig''

Del dette innlegget


Lenke til innlegg
Del på andre sider

Opprett en konto eller logg inn for å kommentere

Du må være et medlem for å kunne skrive en kommentar

Opprett konto

Det er enkelt å melde seg inn for å starte en ny konto!

Start en konto

Logg inn

Har du allerede en konto? Logg inn her.

Logg inn nå

  • Hvem er aktive   0 medlemmer

    Ingen innloggede medlemmer aktive

×
×
  • Opprett ny...

Viktig informasjon

Dette nettstedet bruker cookies for å gi deg en best mulig brukeropplevelse Bruksvilkår.